Make your own free website on Tripod.com

COURTING BLUES
As recorded by Bert Jansch




 4/4
|--------2-||--(2)-------2--------0h|=1-------1--------2--||----|
|----------||o-----3---3----3---3---|---3---0----3---3---o||----|
|----------||o-------2--------2-----|-----0--------0-----o||----|
|----------||-----------------------|---------------------||----|


||---------2--------0h|=1-------1--------2-|
||o--3---3----3---3---|---3---0----3---3---|
||o----2--------2-----|-----0--------0-----|
||--------------------|--------------------|


|--(2)-------2--------0h|=1-------1--------2---|
|------3---3----3---3---|---3---0----3---3-----|
|--------2--------2-----|-----0--------0-------|
|-----------------------|----------------------|


|--------0h1-------0-|--------0--------2-|
|--3---3-----1---1---|--1---1----1---1---|
|----2---------2-----|----0--------0-----|
|--------------------|-------------------|


|-(2)-------2--------0h|=1-------1--------2--|
|-----3---3----3---3---|---3---0----3---3----|
|-------2--------2-----|-----0--------0------|
|----------------------|---------------------|


|--------2--------0h|=1-------1--------2-|
|--3---3----3---3---|---3---0----3---3---|
|----2--------2-----|-----0--------0-----|
|-------------------|--------------------|


|--------0h1-------0-|--------0--------2--|
|--3---3-----1---1---|--1---1----1---1----|
|----2---------2-----|----0--------0------|
|--------------------|--------------------|


|--------2--------0h|=1-------1--------2--||----|
|--3---3----3---3---|---3---0----3---3---o||----|
|----2--------2-----|-----0--------0-----o||----|
|-------------------|---------------------||----|


** Generated using Power Tab Editor by Brad Larsen: The Official Power Tab Web Site