Make your own free website on Tripod.com

YOUR MOTHER SHOULD KNOW
As recorded by The Beatles




Gtr I (G C E A) - 'Ukulele'

    Am                 F                     A7              Dm
   4/4
    Gtr I
||------------7----7-|-(7)---------------0-|---------------|---------------|
||o---5-(5)----------|-------8-------8-----|-3-------------|-3---3---------|
||o-4----------------|---------------------|---4--------4--|-------5-(5)---|
||----------5----5---|-----7---4-(4)---4---|-----2-(2)-----|---2-----------|


  G7                C     C/B      A7                    D7
|-----2--------5--|-7--7--7--7-7-|-(7)---------7-------|----------|
|-3---------------|--------------|-----------------8---|----------|
|-----------------|--------------|---------------------|----------|
|---2---5-(5)-----|--------------|-----2-(2)-2---7---7-|-(7)------|


  G7            C
|-----5-------|------------|-----------------||----|
|---3-----7---|------------|---4-5----------o||----|
|-------------|------------|-4--------------o||----|
|-------5---5-|-(5)--------|-------4-(4)-----||----|


** Generated using Power Tab Editor by Brad Larsen: The Official Power Tab Web Site